  0
SECTION
  2
HEADER
  9
$ACADVER
  1
AC1015
  9
$ACADMAINTVER
 70
     6
  9
$DWGCODEPAGE
  3
ANSI_1254
  9
$INSBASE
 10
0.0
 20
0.0
 30
0.0
  9
$EXTMIN
 10
0.0
 20
0.0
 30
0.0
  9
$EXTMAX
 10
279.4
 20
215.9
 30
0.0
  9
$LIMMIN
 10
0.0
 20
0.0
  9
$LIMMAX
 10
279.4
 20
215.9
  9
$ORTHOMODE
 70
     0
  9
$REGENMODE
 70
     1
  9
$FILLMODE
 70
     1
  9
$QTEXTMODE
 70
     0
  9
$MIRRTEXT
 70
     1
  9
$LTSCALE
 40
1.0
  9
$ATTMODE
 70
     1
  9
$TEXTSIZE
 40
3.5
  9
$TRACEWID
 40
1.0
  9
$TEXTSTYLE
  7
Standard
  9
$CLAYER
  8
0
  9
$CELTYPE
  6
ByLayer
  9
$CECOLOR
 62
   256
  9
$CELTSCALE
 40
1.0
  9
$DISPSILH
 70
     0
  9
$DIMSCALE
 40
1.0
  9
$DIMASZ
 40
3.5
  9
$DIMEXO
 40
1.0
  9
$DIMDLI
 40
3.75
  9
$DIMRND
 40
0.0
  9
$DIMDLE
 40
0.0
  9
$DIMEXE
 40
1.0
  9
$DIMTP
 40
0.0
  9
$DIMTM
 40
0.0
  9
$DIMTXT
 40
3.5
  9
$DIMCEN
 40
2.5
  9
$DIMTSZ
 40
0.0
  9
$DIMTOL
 70
     0
  9
$DIMLIM
 70
     0
  9
$DIMTIH
 70
     1
  9
$DIMTOH
 70
     1
  9
$DIMSE1
 70
     0
  9
$DIMSE2
 70
     0
  9
$DIMTAD
 70
     1
  9
$DIMZIN
 70
     0
  9
$DIMBLK
  1

  9
$DIMASO
 70
     1
  9
$DIMSHO
 70
     1
  9
$DIMPOST
  1

  9
$DIMAPOST
  1

  9
$DIMALT
 70
     0
  9
$DIMALTD
 70
     3
  9
$DIMALTF
 40
0.0393700787
  9
$DIMLFAC
 40
1.0
  9
$DIMTOFL
 70
     1
  9
$DIMTVP
 40
0.0
  9
$DIMTIX
 70
     0
  9
$DIMSOXD
 70
     0
  9
$DIMSAH
 70
     0
  9
$DIMBLK1
  1

  9
$DIMBLK2
  1

  9
$DIMSTYLE
  2
ISO-25
  9
$DIMCLRD
 70
     0
  9
$DIMCLRE
 70
     0
  9
$DIMCLRT
 70
     0
  9
$DIMTFAC
 40
1.0
  9
$DIMGAP
 40
1.524
  9
$DIMJUST
 70
     0
  9
$DIMSD1
 70
     0
  9
$DIMSD2
 70
     0
  9
$DIMTOLJ
 70
     0
  9
$DIMTZIN
 70
     0
  9
$DIMALTZ
 70
     0
  9
$DIMALTTZ
 70
     0
  9
$DIMUPT
 70
     0
  9
$DIMDEC
 70
     2
  9
$DIMTDEC
 70
     2
  9
$DIMALTU
 70
     2
  9
$DIMALTTD
 70
     3
  9
$DIMTXSTY
  7
Standard
  9
$DIMAUNIT
 70
     0
  9
$DIMADEC
 70
     2
  9
$DIMALTRND
 40
0.0
  9
$DIMAZIN
 70
     0
  9
$DIMDSEP
 70
    44
  9
$DIMATFIT
 70
     3
  9
$DIMFRAC
 70
     0
  9
$DIMLDRBLK
  1

  9
$DIMLUNIT
 70
     2
  9
$DIMLWD
 70
    -2
  9
$DIMLWE
 70
    -2
  9
$DIMTMOVE
 70
     0
  9
$LUNITS
 70
     2
  9
$LUPREC
 70
     2
  9
$SKETCHINC
 40
1.0
  9
$FILLETRAD
 40
10.0
  9
$AUNITS
 70
     0
  9
$AUPREC
 70
     2
  9
$MENU
  1
.
  9
$ELEVATION
 40
0.0
  9
$PELEVATION
 40
0.0
  9
$THICKNESS
 40
0.0
  9
$LIMCHECK
 70
     0
  9
$CHAMFERA
 40
0.0
  9
$CHAMFERB
 40
0.0
  9
$CHAMFERC
 40
0.0
  9
$CHAMFERD
 40
0.0
  9
$SKPOLY
 70
     0
  9
$TDCREATE
 40
2458985.699794595
  9
$TDUCREATE
 40
2458985.574794595
  9
$TDUPDATE
 40
2458985.699794884
  9
$TDUUPDATE
 40
2458985.574794884
  9
$TDINDWG
 40
0.0000000116
  9
$TDUSRTIMER
 40
0.0000000116
  9
$USRTIMER
 70
     1
  9
$ANGBASE
 50
0.0
  9
$ANGDIR
 70
     0
  9
$PDMODE
 70
     0
  9
$PDSIZE
 40
-1.0
  9
$PLINEWID
 40
0.0
  9
$SPLFRAME
 70
     0
  9
$SPLINETYPE
 70
     6
  9
$SPLINESEGS
 70
     8
  9
$HANDSEED
  5
F1
  9
$SURFTAB1
 70
     6
  9
$SURFTAB2
 70
     6
  9
$SURFTYPE
 70
     6
  9
$SURFU
 70
     6
  9
$SURFV
 70
     6
  9
$UCSBASE
  2

  9
$UCSNAME
  2

  9
$UCSORG
 10
0.0
 20
0.0
 30
0.0
  9
$UCSXDIR
 10
1.0
 20
0.0
 30
0.0
  9
$UCSYDIR
 10
0.0
 20
1.0
 30
0.0
  9
$UCSORTHOREF
  2

  9
$UCSORTHOVIEW
 70
     0
  9
$UCSORGTOP
 10
0.0
 20
0.0
 30
0.0
  9
$UCSORGBOTTOM
 10
0.0
 20
0.0
 30
0.0
  9
$UCSORGLEFT
 10
0.0
 20
0.0
 30
0.0
  9
$UCSORGRIGHT
 10
0.0
 20
0.0
 30
0.0
  9
$UCSORGFRONT
 10
0.0
 20
0.0
 30
0.0
  9
$UCSORGBACK
 10
0.0
 20
0.0
 30
0.0
  9
$PUCSBASE
  2

  9
$PUCSNAME
  2

  9
$PUCSORG
 10
0.0
 20
0.0
 30
0.0
  9
$PUCSXDIR
 10
1.0
 20
0.0
 30
0.0
  9
$PUCSYDIR
 10
0.0
 20
1.0
 30
0.0
  9
$PUCSORTHOREF
  2

  9
$PUCSORTHOVIEW
 70
     0
  9
$PUCSORGTOP
 10
0.0
 20
0.0
 30
0.0
  9
$PUCSORGBOTTOM
 10
0.0
 20
0.0
 30
0.0
  9
$PUCSORGLEFT
 10
0.0
 20
0.0
 30
0.0
  9
$PUCSORGRIGHT
 10
0.0
 20
0.0
 30
0.0
  9
$PUCSORGFRONT
 10
0.0
 20
0.0
 30
0.0
  9
$PUCSORGBACK
 10
0.0
 20
0.0
 30
0.0
  9
$USERI1
 70
     0
  9
$USERI2
 70
     0
  9
$USERI3
 70
     0
  9
$USERI4
 70
     0
  9
$USERI5
 70
     0
  9
$USERR1
 40
0.0
  9
$USERR2
 40
0.0
  9
$USERR3
 40
0.0
  9
$USERR4
 40
0.0
  9
$USERR5
 40
0.0
  9
$WORLDVIEW
 70
     1
  9
$SHADEDGE
 70
     3
  9
$SHADEDIF
 70
    70
  9
$TILEMODE
 70
     1
  9
$MAXACTVP
 70
    64
  9
$PINSBASE
 10
0.0
 20
0.0
 30
0.0
  9
$PLIMCHECK
 70
     0
  9
$PEXTMIN
 10
1.0000000000E+20
 20
1.0000000000E+20
 30
1.0000000000E+20
  9
$PEXTMAX
 10
-1.0000000000E+20
 20
-1.0000000000E+20
 30
-1.0000000000E+20
  9
$PLIMMIN
 10
0.0
 20
0.0
  9
$PLIMMAX
 10
420.0
 20
297.0
  9
$UNITMODE
 70
     0
  9
$VISRETAIN
 70
     1
  9
$PLINEGEN
 70
     0
  9
$PSLTSCALE
 70
     1
  9
$TREEDEPTH
 70
  3020
  9
$CMLSTYLE
  2
Standard
  9
$CMLJUST
 70
     0
  9
$CMLSCALE
 40
20.0
  9
$PROXYGRAPHICS
 70
     1
  9
$MEASUREMENT
 70
     1
  9
$CELWEIGHT
370
    -1
  9
$ENDCAPS
280
     0
  9
$JOINSTYLE
280
     0
  9
$LWDISPLAY
290
     1
  9
$INSUNITS
 70
     4
  9
$HYPERLINKBASE
  1

  9
$STYLESHEET
  1

  9
$XEDIT
290
     1
  9
$CEPSNTYPE
380
     0
  9
$PSTYLEMODE
290
     1
  9
$FINGERPRINTGUID
  2
{7d6bb257-03ab-4ff5-8922-372f79af7218}
  9
$VERSIONGUID
  2
{FAEB1C32-E019-11D5-929B-00C0DF256EC4}
  9
$EXTNAMES
290
     1
  9
$PSVPSCALE
 40
0.0
  9
$OLESTARTUP
290
     0
  0
ENDSEC
  0
SECTION
  2
CLASSES
  0
CLASS
  1
ACDBDICTIONARYWDFLT
  2
AcDbDictionaryWithDefault
  3
ObjectDBX Classes
 90
        0
280
     0
281
     0
  0
CLASS
  1
VISUALSTYLE
  2
AcDbVisualStyle
  3
ObjectDBX Classes
 90
     4095
280
     0
281
     0
  0
CLASS
  1
MATERIAL
  2
AcDbMaterial
  3
ObjectDBX Classes
 90
     1153
280
     0
281
     0
  0
CLASS
  1
SCALE
  2
AcDbScale
  3
ObjectDBX Classes
 90
     1153
280
     0
281
     0
  0
CLASS
  1
TABLESTYLE
  2
AcDbTableStyle
  3
ObjectDBX Classes
 90
     4095
280
     0
281
     0
  0
CLASS
  1
MLEADERSTYLE
  2
AcDbMLeaderStyle
  3
ACDB_MLEADERSTYLE_CLASS
 90
     4095
280
     0
281
     0
  0
CLASS
  1
SUN
  2
AcDbSun
  3
SCENEOE
 90
     1153
280
     0
281
     0
  0
CLASS
  1
ACDBPLACEHOLDER
  2
AcDbPlaceHolder
  3
ObjectDBX Classes
 90
        0
280
     0
281
     0
  0
CLASS
  1
LAYOUT
  2
AcDbLayout
  3
ObjectDBX Classes
 90
        0
280
     0
281
     0
  0
ENDSEC
  0
SECTION
  2
TABLES
  0
TABLE
  2
VPORT
  5
8
330
0
100
AcDbSymbolTable
 70
     1
  0
VPORT
  5
29
330
8
100
AcDbSymbolTableRecord
100
AcDbViewportTableRecord
  2
*Active
 70
     0
 10
0.0
 20
0.0
 11
1.0
 21
1.0
 12
139.7
 22
107.95
 13
0.0
 23
0.0
 14
10.0
 24
10.0
 15
10.0
 25
10.0
 16
0.0
 26
0.0
 36
1.0
 17
0.0
 27
0.0
 37
0.0
 40
215.9
 41
1.2941176471
 42
50.0
 43
0.0
 44
0.0
 50
0.0
 51
0.0
 71
     0
 72
  2000
 73
     1
 74
     3
 75
     0
 76
     0
 77
     0
 78
     0
281
     0
 65
     1
110
0.0
120
0.0
130
0.0
111
1.0
121
0.0
131
0.0
112
0.0
122
1.0
132
0.0
 79
     0
146
0.0
  0
ENDTAB
  0
TABLE
  2
LTYPE
  5
5
330
0
100
AcDbSymbolTable
 70
     6
  0
LTYPE
  5
14
330
5
100
AcDbSymbolTableRecord
100
AcDbLinetypeTableRecord
  2
ByBlock
 70
     0
  3

 72
    65
 73
     0
 40
0.0
  0
LTYPE
  5
15
330
5
100
AcDbSymbolTableRecord
100
AcDbLinetypeTableRecord
  2
ByLayer
 70
     0
  3

 72
    65
 73
     0
 40
0.0
  0
LTYPE
  5
16
330
5
100
AcDbSymbolTableRecord
100
AcDbLinetypeTableRecord
  2
Continuous
 70
     0
  3
Solid line
 72
    65
 73
     0
 40
0.0
  0
LTYPE
  5
6E
330
5
100
AcDbSymbolTableRecord
100
AcDbLinetypeTableRecord
  2
HIDDEN
 70
     0
  3
Hidden __ __ __ __ __ __ __ __ __ __ __ __ __ __
 72
    65
 73
     2
 40
1.905
 49
1.27
 74
     0
 49
-0.635
 74
     0
  0
LTYPE
  5
6F
330
5
100
AcDbSymbolTableRecord
100
AcDbLinetypeTableRecord
  2
PHANTOM
 70
     0
  3
Phantom ______  __  __  ______  __  __  ______
 72
    65
 73
     6
 40
12.7
 49
6.35
 74
     0
 49
-1.27
 74
     0
 49
1.27
 74
     0
 49
-1.27
 74
     0
 49
1.27
 74
     0
 49
-1.27
 74
     0
  0
LTYPE
  5
70
330
5
100
AcDbSymbolTableRecord
100
AcDbLinetypeTableRecord
  2
CENTER
 70
     0
  3
Center ____ _ ____ _ ____ _ ____ _ ____ _ ____
 72
    65
 73
     4
 40
10.16
 49
6.35
 74
     0
 49
-1.27
 74
     0
 49
1.27
 74
     0
 49
-1.27
 74
     0
  0
LTYPE
  5
71
330
5
100
AcDbSymbolTableRecord
100
AcDbLinetypeTableRecord
  2
CENTERX2
 70
     0
  3
Center (2x) ________  __  ________  __  _____
 72
    65
 73
     4
 40
20.32
 49
12.7
 74
     0
 49
-2.54
 74
     0
 49
2.54
 74
     0
 49
-2.54
 74
     0
  0
LTYPE
  5
72
330
5
100
AcDbSymbolTableRecord
100
AcDbLinetypeTableRecord
  2
DOT2
 70
     0
  3
Dot (.5x) ........................................
 72
    65
 73
     2
 40
0.635
 49
0.0
 74
     0
 49
-0.635
 74
     0
  0
ENDTAB
  0
TABLE
  2
LAYER
  5
2
330
0
100
AcDbSymbolTable
 70
    17
  0
LAYER
  5
10
330
2
100
AcDbSymbolTableRecord
100
AcDbLayerTableRecord
  2
0
 70
     0
 62
     7
  6
Continuous
370
    -3
390
F
  0
LAYER
  5
73
330
2
100
AcDbSymbolTableRecord
100
AcDbLayerTableRecord
  2
FORMAT
 70
     0
 62
     7
  6
Continuous
370
    -3
390
F
  0
LAYER
  5
74
330
2
100
AcDbSymbolTableRecord
100
AcDbLayerTableRecord
  2
YARDIMCI_GEOMETRI
 70
     0
 62
    -6
  6
Continuous
290
     0
370
    -3
390
F
  0
LAYER
  5
75
330
2
100
AcDbSymbolTableRecord
100
AcDbLayerTableRecord
  2
SAYFA_CERCEVESI
 70
     0
 62
     7
  6
Continuous
370
    25
390
F
  0
LAYER
  5
76
330
2
100
AcDbSymbolTableRecord
100
AcDbLayerTableRecord
  2
ANTET
 70
     0
 62
     7
  6
Continuous
370
    -3
390
F
  0
LAYER
  5
77
330
2
100
AcDbSymbolTableRecord
100
AcDbLayerTableRecord
  2
OLCU
 70
     0
 62
   150
  6
Continuous
370
    -3
390
F
  0
LAYER
  5
78
330
2
100
AcDbSymbolTableRecord
100
AcDbLayerTableRecord
  2
METIN
 70
     0
 62
    96
  6
Continuous
370
    -3
390
F
  0
LAYER
  5
79
330
2
100
AcDbSymbolTableRecord
100
AcDbLayerTableRecord
  2
BALON
 70
     0
 62
     5
  6
Continuous
370
    -3
390
F
  0
LAYER
  5
7A
330
2
100
AcDbSymbolTableRecord
100
AcDbLayerTableRecord
  2
VURGU
 70
     0
 62
     7
  6
Continuous
370
    -3
390
F
  0
LAYER
  5
7B
330
2
100
AcDbSymbolTableRecord
100
AcDbLayerTableRecord
  2
SILIK
 70
     0
 62
     7
  6
Continuous
370
    -3
390
F
  0
LAYER
  5
7C
330
2
100
AcDbSymbolTableRecord
100
AcDbLayerTableRecord
  2
MODEL
 70
     0
 62
     7
  6
Continuous
370
    -3
390
F
  0
LAYER
  5
7D
330
2
100
AcDbSymbolTableRecord
100
AcDbLayerTableRecord
  2
DETAYLANDıRMA
 70
     0
 62
   190
  6
Continuous
370
    -3
390
F
  0
LAYER
  5
7E
330
2
100
AcDbSymbolTableRecord
100
AcDbLayerTableRecord
  2
TOLERANS
 70
     0
 62
   230
  6
Continuous
370
    -3
390
F
  0
LAYER
  5
7F
330
2
100
AcDbSymbolTableRecord
100
AcDbLayerTableRecord
  2
MERKEZ_CIZGILERI
 70
     0
 62
    30
  6
Continuous
370
    -3
390
F
  0
LAYER
  5
80
330
2
100
AcDbSymbolTableRecord
100
AcDbLayerTableRecord
  2
KESIT-DETAY_CIZGILERI
 70
     0
 62
     7
  6
Continuous
370
    -3
390
F
  0
LAYER
  5
81
330
2
100
AcDbSymbolTableRecord
100
AcDbLayerTableRecord
  2
\U+041E\U+0421\U+0415\U+0412\U+042B\U+0415
 70
     0
 62
     7
  6
Continuous
370
    -3
390
F
  0
LAYER
  5
82
330
2
100
AcDbSymbolTableRecord
100
AcDbLayerTableRecord
  2
\U+0412\U+041E\U+0414\U+042F\U+041D\U+042B\U+0415_\U+0417\U+041D\U+0410\U+041A\U+0418
 70
     0
 62
    11
  6
Continuous
370
    -3
390
F
  0
ENDTAB
  0
TABLE
  2
STYLE
  5
3
330
0
100
AcDbSymbolTable
 70
     1
  0
STYLE
  5
11
330
3
100
AcDbSymbolTableRecord
100
AcDbTextStyleTableRecord
  2
Standard
 70
     0
 40
0.0
 41
1.0
 50
0.0
 71
     0
 42
3.5
  3
txt
  4

  0
ENDTAB
  0
TABLE
  2
VIEW
  5
6
330
0
100
AcDbSymbolTable
 70
     0
  0
ENDTAB
  0
TABLE
  2
UCS
  5
7
330
0
100
AcDbSymbolTable
 70
     0
  0
ENDTAB
  0
TABLE
  2
APPID
  5
9
330
0
100
AcDbSymbolTable
 70
     1
  0
APPID
  5
12
330
9
100
AcDbSymbolTableRecord
100
AcDbRegAppTableRecord
  2
ACAD
 70
     0
  0
ENDTAB
  0
TABLE
  2
DIMSTYLE
  5
A
330
0
100
AcDbSymbolTable
 70
     1
100
AcDbDimStyleTable
  0
DIMSTYLE
105
27
330
A
100
AcDbSymbolTableRecord
100
AcDbDimStyleTableRecord
  2
ISO-25
 70
     0
 41
2.5
 42
0.625
 43
3.75
 44
1.25
 73
     0
 74
     0
 77
     1
 78
     8
140
2.5
141
2.5
143
0.0393700787
147
0.625
171
     3
172
     1
178
     0
271
     2
272
     2
274
     3
278
    44
283
     0
284
     8
340
11
  0
ENDTAB
  0
TABLE
  2
BLOCK_RECORD
  5
1
330
0
100
AcDbSymbolTable
 70
     2
  0
BLOCK_RECORD
  5
1F
330
1
100
AcDbSymbolTableRecord
100
AcDbBlockTableRecord
  2
*Model_Space
340
22
  0
BLOCK_RECORD
  5
1B
330
1
100
AcDbSymbolTableRecord
100
AcDbBlockTableRecord
  2
*Paper_Space
340
1E
  0
BLOCK_RECORD
  5
23
330
1
100
AcDbSymbolTableRecord
100
AcDbBlockTableRecord
  2
*Paper_Space0
340
26
  0
BLOCK_RECORD
  5
88
330
1
100
AcDbSymbolTableRecord
100
AcDbBlockTableRecord
  2
SW_CENTERMARKSYMBOL_0
340
0
102
{BLKREFS
331
93
102
}
  0
ENDTAB
  0
ENDSEC
  0
SECTION
  2
BLOCKS
  0
BLOCK
  5
20
330
1F
100
AcDbEntity
  8
0
100
AcDbBlockBegin
  2
*Model_Space
 70
     0
 10
0.0
 20
0.0
 30
0.0
  3
*Model_Space
  1

  0
ENDBLK
  5
21
330
1F
100
AcDbEntity
  8
0
100
AcDbBlockEnd
  0
BLOCK
  5
1C
330
1B
100
AcDbEntity
 67
     1
  8
0
100
AcDbBlockBegin
  2
*Paper_Space
 70
     0
 10
0.0
 20
0.0
 30
0.0
  3
*Paper_Space
  1

  0
ENDBLK
  5
1D
330
1B
100
AcDbEntity
 67
     1
  8
0
100
AcDbBlockEnd
  0
BLOCK
  5
24
330
23
100
AcDbEntity
  8
0
100
AcDbBlockBegin
  2
*Paper_Space0
 70
     0
 10
0.0
 20
0.0
 30
0.0
  3
*Paper_Space0
  1

  0
ENDBLK
  5
25
330
23
100
AcDbEntity
  8
0
100
AcDbBlockEnd
  0
BLOCK
  5
89
330
88
100
AcDbEntity
  8
0
100
AcDbBlockBegin
  2
SW_CENTERMARKSYMBOL_0
 70
     0
 10
0.0
 20
0.0
 30
0.0
  3
SW_CENTERMARKSYMBOL_0
  1

  0
LINE
  5
8B
330
88
100
AcDbEntity
  8
FORMAT
 62
     0
100
AcDbLine
 10
0.0
 20
0.0
 30
0.0
 11
0.0
 21
2.5
 31
0.0
  0
LINE
  5
8C
330
88
100
AcDbEntity
  8
FORMAT
 62
     0
100
AcDbLine
 10
0.0
 20
0.0
 30
0.0
 11
-2.5
 21
0.0
 31
0.0
  0
LINE
  5
8D
330
88
100
AcDbEntity
  8
FORMAT
 62
     0
100
AcDbLine
 10
0.0
 20
0.0
 30
0.0
 11
0.0
 21
-2.5
 31
0.0
  0
LINE
  5
8E
330
88
100
AcDbEntity
  8
FORMAT
 62
     0
100
AcDbLine
 10
0.0
 20
0.0
 30
0.0
 11
2.5
 21
0.0
 31
0.0
  0
LINE
  5
8F
330
88
100
AcDbEntity
  8
FORMAT
 62
     0
100
AcDbLine
 10
0.0
 20
5.0
 30
0.0
 11
0.0
 21
142.5
 31
0.0
  0
LINE
  5
90
330
88
100
AcDbEntity
  8
FORMAT
 62
     0
100
AcDbLine
 10
-5.0
 20
0.0
 30
0.0
 11
-142.5
 21
0.0
 31
0.0
  0
LINE
  5
91
330
88
100
AcDbEntity
  8
FORMAT
 62
     0
100
AcDbLine
 10
0.0
 20
-5.0
 30
0.0
 11
0.0
 21
-142.5
 31
0.0
  0
LINE
  5
92
330
88
100
AcDbEntity
  8
FORMAT
 62
     0
100
AcDbLine
 10
5.0
 20
0.0
 30
0.0
 11
142.5
 21
0.0
 31
0.0
  0
ENDBLK
  5
8A
330
88
100
AcDbEntity
  8
0
100
AcDbBlockEnd
  0
ENDSEC
  0
SECTION
  2
ENTITIES
  0
CIRCLE
  5
83
330
1F
100
AcDbEntity
  8
0
  6
Continuous
 62
     7
370
    25
100
AcDbCircle
 10
139.395004093
 20
107.5851680021
 30
0.0
 40
140.0
  0
CIRCLE
  5
84
330
1F
100
AcDbEntity
  8
0
  6
Continuous
 62
     7
370
    25
100
AcDbCircle
 10
139.395004093
 20
107.5851680021
 30
0.0
 40
114.6
  0
CIRCLE
  5
85
330
1F
100
AcDbEntity
  8
0
  6
Continuous
 62
     7
370
    25
100
AcDbCircle
 10
139.395004093
 20
107.5851680021
 30
0.0
 40
114.1062621226259
  0
CIRCLE
  5
86
330
1F
100
AcDbEntity
  8
0
  6
Continuous
 62
     7
370
    25
100
AcDbCircle
 10
139.395004093
 20
107.5851680021
 30
0.0
 40
74.0937378773741
  0
CIRCLE
  5
87
330
1F
100
AcDbEntity
  8
0
  6
Continuous
 62
     7
370
    25
100
AcDbCircle
 10
139.395004093
 20
107.5851680021
 30
0.0
 40
73.60000000000002
  0
INSERT
  5
93
330
1F
100
AcDbEntity
  8
FORMAT
 62
     7
100
AcDbBlockReference
  2
SW_CENTERMARKSYMBOL_0
 10
139.395004093
 20
107.5851680021
 30
0.0
  0
ARC
  5
94
330
1F
100
AcDbEntity
  8
0
  6
Continuous
 62
     7
370
    25
100
AcDbCircle
 10
-300.4599004453
 20
245.5851680021
 30
0.0
 40
2.000000000000028
100
AcDbArc
 50
64.3231843182
 51
90.0
  0
ARC
  5
95
330
1F
100
AcDbEntity
  8
0
  6
Continuous
 62
     7
370
    25
100
AcDbCircle
 10
-300.4599004453
 20
-30.4148319979
 30
0.0
 40
2.000000000000031
100
AcDbArc
 50
270.0
 51
295.6768156818
  0
LINE
  5
96
330
1F
100
AcDbEntity
  8
0
  6
Continuous
 62
     7
370
    25
100
AcDbLine
 10
-300.4598987899
 20
247.5851685982
 30
0.0
 11
-439.0041006408
 21
247.5851685982
 31
0.0
  0
LINE
  5
97
330
1F
100
AcDbEntity
  8
0
  6
Continuous
 62
     7
370
    25
100
AcDbLine
 10
-439.0041006408
 20
-32.4148325939
 30
0.0
 11
-300.4598987899
 21
-32.4148325939
 31
0.0
  0
LINE
  5
98
330
1F
100
AcDbEntity
  8
0
  6
Continuous
 62
     7
370
    25
100
AcDbLine
 10
-299.5933105848
 20
-32.2173326035
 30
0.0
 11
-196.4148914121
 21
17.387671886
 31
0.0
  0
LINE
  5
99
330
1F
100
AcDbEntity
  8
0
  6
Continuous
 62
     7
370
    25
100
AcDbLine
 10
-196.4148914121
 20
197.7826641183
 30
0.0
 11
-299.5933105848
 21
247.3876686077
 31
0.0
  0
ARC
  5
9A
330
1F
100
AcDbEntity
  8
0
  6
Continuous
 62
     7
370
    25
100
AcDbCircle
 10
-195.5483025338
 20
199.5851680021
 30
0.0
 40
2.0
100
AcDbArc
 50
244.3231843182
 51
270.0
  0
ARC
  5
9B
330
1F
100
AcDbEntity
  8
0
  6
Continuous
 62
     7
370
    25
100
AcDbCircle
 10
-195.5483025338
 20
15.5851680021
 30
0.0
 40
2.000000000000004
100
AcDbArc
 50
90.0
 51
115.6768156818
  0
LINE
  5
9C
330
1F
100
AcDbEntity
  8
0
  6
Continuous
 62
     7
370
    25
100
AcDbLine
 10
-91.0040957532
 20
197.5851715784
 30
0.0
 11
-195.548303207
 21
197.5851715784
 31
0.0
  0
LINE
  5
9D
330
1F
100
AcDbEntity
  8
0
  6
Continuous
 62
     7
370
    25
100
AcDbLine
 10
-195.548303207
 20
17.5851644258
 30
0.0
 11
-91.0040957532
 21
17.5851644258
 31
0.0
  0
LINE
  5
9E
330
1F
100
AcDbEntity
  8
0
  6
Continuous
 62
     7
370
    25
100
AcDbLine
 10
-439.0041006408
 20
247.5851685982
 30
0.0
 11
-439.0041006408
 21
-32.4148325939
 31
0.0
  0
LINE
  5
9F
330
1F
100
AcDbEntity
  8
0
  6
Continuous
 62
     7
370
    25
100
AcDbLine
 10
-91.0040957532
 20
197.5851715784
 30
0.0
 11
-91.0040957532
 21
17.5851644258
 31
0.0
  0
LINE
  5
A0
330
1F
100
AcDbEntity
  8
0
  6
Continuous
 62
     1
370
    25
100
AcDbLine
 10
-299.5933105848
 20
247.3876686077
 30
0.0
 11
-299.5933105848
 21
-32.2173326035
 31
0.0
  0
LINE
  5
A1
330
1F
100
AcDbEntity
  8
0
  6
Continuous
 62
     1
370
    25
100
AcDbLine
 10
-300.4598987899
 20
247.5851685982
 30
0.0
 11
-300.4598987899
 21
-32.4148325939
 31
0.0
  0
LINE
  5
A2
330
1F
100
AcDbEntity
  8
0
  6
Continuous
 62
     1
370
    25
100
AcDbLine
 10
-196.4148914121
 20
197.7826641183
 30
0.0
 11
-196.4148914121
 21
17.387671886
 31
0.0
  0
LINE
  5
A3
330
1F
100
AcDbEntity
  8
0
  6
Continuous
 62
     1
370
    25
100
AcDbLine
 10
-195.548303207
 20
197.5851715784
 30
0.0
 11
-195.548303207
 21
17.5851644258
 31
0.0
  0
ARC
  5
A4
330
1F
100
AcDbEntity
  8
0
  6
Continuous
 62
     7
370
    25
100
AcDbCircle
 10
620.7022794629
 20
-30.4148319979
 30
0.0
 40
1.999999999999975
100
AcDbArc
 50
244.3231843182
 51
270.0
  0
ARC
  5
A5
330
1F
100
AcDbEntity
  8
0
  6
Continuous
 62
     7
370
    25
100
AcDbCircle
 10
620.7022794629
 20
245.5851680021
 30
0.0
 40
1.999999999999972
100
AcDbArc
 50
90.0
 51
115.6768156818
  0
LINE
  5
A6
330
1F
100
AcDbEntity
  8
0
  6
Continuous
 62
     7
370
    25
100
AcDbLine
 10
620.7022778074
 20
-32.4148325939
 30
0.0
 11
759.2464796583
 21
-32.4148325939
 31
0.0
  0
LINE
  5
A7
330
1F
100
AcDbEntity
  8
0
  6
Continuous
 62
     7
370
    25
100
AcDbLine
 10
759.2464796583
 20
247.5851685982
 30
0.0
 11
620.7022778074
 21
247.5851685982
 31
0.0
  0
LINE
  5
A8
330
1F
100
AcDbEntity
  8
0
  6
Continuous
 62
     7
370
    25
100
AcDbLine
 10
619.8356896023
 20
247.3876686077
 30
0.0
 11
516.6572704296
 21
197.7826641183
 31
0.0
  0
LINE
  5
A9
330
1F
100
AcDbEntity
  8
0
  6
Continuous
 62
     7
370
    25
100
AcDbLine
 10
516.6572704296
 20
17.387671886
 30
0.0
 11
619.8356896023
 21
-32.2173326035
 31
0.0
  0
ARC
  5
AA
330
1F
100
AcDbEntity
  8
0
  6
Continuous
 62
     7
370
    25
100
AcDbCircle
 10
515.7906815513
 20
15.5851680021
 30
0.0
 40
2.000000000000006
100
AcDbArc
 50
64.3231843182
 51
90.0
  0
ARC
  5
AB
330
1F
100
AcDbEntity
  8
0
  6
Continuous
 62
     7
370
    25
100
AcDbCircle
 10
515.7906815513
 20
199.5851680021
 30
0.0
 40
2.000000000000003
100
AcDbArc
 50
270.0
 51
295.6768156818
  0
LINE
  5
AC
330
1F
100
AcDbEntity
  8
0
  6
Continuous
 62
     7
370
    25
100
AcDbLine
 10
411.2464747708
 20
17.5851644258
 30
0.0
 11
515.7906822245
 21
17.5851644258
 31
0.0
  0
LINE
  5
AD
330
1F
100
AcDbEntity
  8
0
  6
Continuous
 62
     7
370
    25
100
AcDbLine
 10
515.7906822245
 20
197.5851715784
 30
0.0
 11
411.2464747708
 21
197.5851715784
 31
0.0
  0
LINE
  5
AE
330
1F
100
AcDbEntity
  8
0
  6
Continuous
 62
     7
370
    25
100
AcDbLine
 10
759.2464796583
 20
107.5851680021
 30
0.0
 11
759.2464796583
 21
247.5851685982
 31
0.0
  0
LINE
  5
AF
330
1F
100
AcDbEntity
  8
0
  6
Continuous
 62
     7
370
    25
100
AcDbLine
 10
759.2464796583
 20
-32.4148325939
 30
0.0
 11
759.2464796583
 21
107.5851680021
 31
0.0
  0
LINE
  5
B0
330
1F
100
AcDbEntity
  8
0
  6
Continuous
 62
     7
370
    25
100
AcDbLine
 10
411.2464747708
 20
107.5851680021
 30
0.0
 11
411.2464747708
 21
197.5851715784
 31
0.0
  0
LINE
  5
B1
330
1F
100
AcDbEntity
  8
0
  6
Continuous
 62
     7
370
    25
100
AcDbLine
 10
411.2464747708
 20
17.5851644258
 30
0.0
 11
411.2464747708
 21
107.5851680021
 31
0.0
  0
LINE
  5
B2
330
1F
100
AcDbEntity
  8
0
  6
Continuous
 62
     1
370
    25
100
AcDbLine
 10
619.8356896023
 20
107.5851680021
 30
0.0
 11
619.8356896023
 21
247.3876686077
 31
0.0
  0
LINE
  5
B3
330
1F
100
AcDbEntity
  8
0
  6
Continuous
 62
     1
370
    25
100
AcDbLine
 10
619.8356896023
 20
-32.2173326035
 30
0.0
 11
619.8356896023
 21
107.5851680021
 31
0.0
  0
LINE
  5
B4
330
1F
100
AcDbEntity
  8
0
  6
Continuous
 62
     1
370
    25
100
AcDbLine
 10
620.7022778074
 20
107.5851680021
 30
0.0
 11
620.7022778074
 21
247.5851685982
 31
0.0
  0
LINE
  5
B5
330
1F
100
AcDbEntity
  8
0
  6
Continuous
 62
     1
370
    25
100
AcDbLine
 10
620.7022778074
 20
-32.4148325939
 30
0.0
 11
620.7022778074
 21
107.5851680021
 31
0.0
  0
LINE
  5
B6
330
1F
100
AcDbEntity
  8
0
  6
Continuous
 62
     1
370
    25
100
AcDbLine
 10
516.6572704296
 20
107.5851680021
 30
0.0
 11
516.6572704296
 21
197.7826641183
 31
0.0
  0
LINE
  5
B7
330
1F
100
AcDbEntity
  8
0
  6
Continuous
 62
     1
370
    25
100
AcDbLine
 10
516.6572704296
 20
17.387671886
 30
0.0
 11
516.6572704296
 21
107.5851680021
 31
0.0
  0
LINE
  5
B8
330
1F
100
AcDbEntity
  8
0
  6
Continuous
 62
     1
370
    25
100
AcDbLine
 10
515.7906822245
 20
107.5851680021
 30
0.0
 11
515.7906822245
 21
197.5851715784
 31
0.0
  0
LINE
  5
B9
330
1F
100
AcDbEntity
  8
0
  6
Continuous
 62
     1
370
    25
100
AcDbLine
 10
515.7906822245
 20
17.5851644258
 30
0.0
 11
515.7906822245
 21
107.5851680021
 31
0.0
  0
ARC
  5
BA
330
1F
100
AcDbEntity
  8
0
  6
Continuous
 62
     7
370
    25
100
AcDbCircle
 10
277.395004093
 20
580.7277418195
 30
0.0
 40
2.000000000000003
100
AcDbArc
 50
334.3231843182
 51
0.0
  0
ARC
  5
BB
330
1F
100
AcDbEntity
  8
0
  6
Continuous
 62
     7
370
    25
100
AcDbCircle
 10
1.395004093
 20
580.7277418195
 30
0.0
 40
2.000000000000006
100
AcDbArc
 50
180.0
 51
205.6768156818
  0
LINE
  5
BC
330
1F
100
AcDbEntity
  8
0
  6
Continuous
 62
     7
370
    25
100
AcDbLine
 10
279.3950046891
 20
580.7277401641
 30
0.0
 11
279.3950046891
 21
719.271942015
 31
0.0
  0
LINE
  5
BD
330
1F
100
AcDbEntity
  8
0
  6
Continuous
 62
     7
370
    25
100
AcDbLine
 10
-0.604996503
 20
719.271942015
 30
0.0
 11
-0.604996503
 21
580.7277401641
 31
0.0
  0
LINE
  5
BE
330
1F
100
AcDbEntity
  8
0
  6
Continuous
 62
     7
370
    25
100
AcDbLine
 10
-0.4074965125
 20
579.861151959
 30
0.0
 11
49.1975079769
 21
476.6827327863
 31
0.0
  0
LINE
  5
BF
330
1F
100
AcDbEntity
  8
0
  6
Continuous
 62
     7
370
    25
100
AcDbLine
 10
229.5925002092
 20
476.6827327863
 30
0.0
 11
279.1975046986
 21
579.861151959
 31
0.0
  0
ARC
  5
C0
330
1F
100
AcDbEntity
  8
0
  6
Continuous
 62
     7
370
    25
100
AcDbCircle
 10
231.395004093
 20
475.816143908
 30
0.0
 40
2.0
100
AcDbArc
 50
154.3231843182
 51
180.0
  0
ARC
  5
C1
330
1F
100
AcDbEntity
  8
0
  6
Continuous
 62
     7
370
    25
100
AcDbCircle
 10
47.395004093
 20
475.816143908
 30
0.0
 40
2.0
100
AcDbArc
 50
0.0
 51
25.6768156818
  0
LINE
  5
C2
330
1F
100
AcDbEntity
  8
0
  6
Continuous
 62
     7
370
    25
100
AcDbLine
 10
229.3950076693
 20
371.2719371274
 30
0.0
 11
229.3950076693
 21
475.8161445812
 31
0.0
  0
LINE
  5
C3
330
1F
100
AcDbEntity
  8
0
  6
Continuous
 62
     7
370
    25
100
AcDbLine
 10
49.3950005168
 20
475.8161445812
 30
0.0
 11
49.3950005168
 21
371.2719371274
 31
0.0
  0
LINE
  5
C4
330
1F
100
AcDbEntity
  8
0
  6
Continuous
 62
     7
370
    25
100
AcDbLine
 10
279.3950046891
 20
719.271942015
 30
0.0
 11
-0.604996503
 21
719.271942015
 31
0.0
  0
LINE
  5
C5
330
1F
100
AcDbEntity
  8
0
  6
Continuous
 62
     7
370
    25
100
AcDbLine
 10
229.3950076693
 20
371.2719371274
 30
0.0
 11
49.3950005168
 21
371.2719371274
 31
0.0
  0
LINE
  5
C6
330
1F
100
AcDbEntity
  8
0
  6
Continuous
 62
     1
370
    25
100
AcDbLine
 10
279.1975046986
 20
579.861151959
 30
0.0
 11
-0.4074965125
 21
579.861151959
 31
0.0
  0
LINE
  5
C7
330
1F
100
AcDbEntity
  8
0
  6
Continuous
 62
     1
370
    25
100
AcDbLine
 10
279.3950046891
 20
580.7277401641
 30
0.0
 11
-0.604996503
 21
580.7277401641
 31
0.0
  0
LINE
  5
C8
330
1F
100
AcDbEntity
  8
0
  6
Continuous
 62
     1
370
    25
100
AcDbLine
 10
229.5925002092
 20
476.6827327863
 30
0.0
 11
49.1975079769
 21
476.6827327863
 31
0.0
  0
LINE
  5
C9
330
1F
100
AcDbEntity
  8
0
  6
Continuous
 62
     1
370
    25
100
AcDbLine
 10
229.3950076693
 20
475.8161445812
 30
0.0
 11
49.3950005168
 21
475.8161445812
 31
0.0
  0
ARC
  5
CA
330
1F
100
AcDbEntity
  8
0
  6
Continuous
 62
     7
370
    25
100
AcDbCircle
 10
1.395004093
 20
-331.0483788324
 30
0.0
 40
1.999999999999974
100
AcDbArc
 50
154.3231843182
 51
180.0
  0
ARC
  5
CB
330
1F
100
AcDbEntity
  8
0
  6
Continuous
 62
     7
370
    25
100
AcDbCircle
 10
277.395004093
 20
-331.0483788324
 30
0.0
 40
1.999999999999954
100
AcDbArc
 50
0.0
 51
25.6768156818
  0
LINE
  5
CC
330
1F
100
AcDbEntity
  8
0
  6
Continuous
 62
     7
370
    25
100
AcDbLine
 10
-0.604996503
 20
-331.048377177
 30
0.0
 11
-0.604996503
 21
-469.5925790279
 31
0.0
  0
LINE
  5
CD
330
1F
100
AcDbEntity
  8
0
  6
Continuous
 62
     7
370
    25
100
AcDbLine
 10
279.3950046891
 20
-469.5925790279
 30
0.0
 11
279.3950046891
 21
-331.048377177
 31
0.0
  0
LINE
  5
CE
330
1F
100
AcDbEntity
  8
0
  6
Continuous
 62
     7
370
    25
100
AcDbLine
 10
279.1975046986
 20
-330.1817889719
 30
0.0
 11
229.5925002092
 21
-227.0033697992
 31
0.0
  0
LINE
  5
CF
330
1F
100
AcDbEntity
  8
0
  6
Continuous
 62
     7
370
    25
100
AcDbLine
 10
49.1975079769
 20
-227.0033697992
 30
0.0
 11
-0.4074965125
 21
-330.1817889719
 31
0.0
  0
ARC
  5
D0
330
1F
100
AcDbEntity
  8
0
  6
Continuous
 62
     7
370
    25
100
AcDbCircle
 10
47.395004093
 20
-226.1367809209
 30
0.0
 40
2.0
100
AcDbArc
 50
334.3231843182
 51
0.0
  0
ARC
  5
D1
330
1F
100
AcDbEntity
  8
0
  6
Continuous
 62
     7
370
    25
100
AcDbCircle
 10
231.395004093
 20
-226.1367809209
 30
0.0
 40
2.0
100
AcDbArc
 50
180.0
 51
205.6768156818
  0
LINE
  5
D2
330
1F
100
AcDbEntity
  8
0
  6
Continuous
 62
     7
370
    25
100
AcDbLine
 10
49.3950005168
 20
-121.5925741403
 30
0.0
 11
49.3950005168
 21
-226.1367815941
 31
0.0
  0
LINE
  5
D3
330
1F
100
AcDbEntity
  8
0
  6
Continuous
 62
     7
370
    25
100
AcDbLine
 10
229.3950076693
 20
-226.1367815941
 30
0.0
 11
229.3950076693
 21
-121.5925741403
 31
0.0
  0
LINE
  5
D4
330
1F
100
AcDbEntity
  8
0
  6
Continuous
 62
     7
370
    25
100
AcDbLine
 10
-0.604996503
 20
-469.5925790279
 30
0.0
 11
279.3950046891
 21
-469.5925790279
 31
0.0
  0
LINE
  5
D5
330
1F
100
AcDbEntity
  8
0
  6
Continuous
 62
     7
370
    25
100
AcDbLine
 10
49.3950005168
 20
-121.5925741403
 30
0.0
 11
229.3950076693
 21
-121.5925741403
 31
0.0
  0
LINE
  5
D6
330
1F
100
AcDbEntity
  8
0
  6
Continuous
 62
     1
370
    25
100
AcDbLine
 10
-0.4074965125
 20
-330.1817889719
 30
0.0
 11
279.1975046986
 21
-330.1817889719
 31
0.0
  0
LINE
  5
D7
330
1F
100
AcDbEntity
  8
0
  6
Continuous
 62
     1
370
    25
100
AcDbLine
 10
-0.604996503
 20
-331.048377177
 30
0.0
 11
279.3950046891
 21
-331.048377177
 31
0.0
  0
LINE
  5
D8
330
1F
100
AcDbEntity
  8
0
  6
Continuous
 62
     1
370
    25
100
AcDbLine
 10
49.1975079769
 20
-227.0033697992
 30
0.0
 11
229.5925002092
 21
-227.0033697992
 31
0.0
  0
LINE
  5
D9
330
1F
100
AcDbEntity
  8
0
  6
Continuous
 62
     1
370
    25
100
AcDbLine
 10
49.3950005168
 20
-226.1367815941
 30
0.0
 11
229.3950076693
 21
-226.1367815941
 31
0.0
  0
LINE
  5
DA
330
1F
100
AcDbEntity
  8
0
  6
Continuous
 62
     7
370
    25
100
AcDbLine
 10
639.2565072217
 20
-161.9355665904
 30
0.0
 11
541.2909625988
 21
-105.3812614718
 31
0.0
  0
LINE
  5
DB
330
1F
100
AcDbEntity
  8
0
  6
Continuous
 62
     7
370
    25
100
AcDbLine
 10
401.3023442225
 20
-347.874941867
 30
0.0
 11
499.2678888453
 21
-404.4292469855
 31
0.0
  0
SPLINE
  5
DC
330
1F
100
AcDbEntity
  8
0
  6
Continuous
 62
     7
370
    25
100
AcDbSpline
210
0.0
220
0.0
230
1.0
 70
     8
 71
     3
 72
    10
 73
     6
 74
     0
 42
0.000000001
 43
0.00000001
 40
0.0
 40
0.0
 40
0.0
 40
0.0
 40
0.3056312943815333
 40
0.8095297033499391
 40
1.0
 40
1.0
 40
1.0
 40
1.0
 10
653.1290107001468
 20
-173.9443687438596
 30
0.0
 10
652.6124299625736
 20
-173.3018598463253
 30
0.0
 10
651.2441556433811
 20
-171.6000379230395
 30
0.0
 10
649.4152388449534
 20
-169.6719253197786
 30
0.0
 10
648.0485227237747
 20
-168.4718977805037
 30
0.0
 10
647.6736227276618
 20
-168.1427216532612
 30
0.0
  0
SPLINE
  5
DD
330
1F
100
AcDbEntity
  8
0
  6
Continuous
 62
     7
370
    25
100
AcDbSpline
210
0.0
220
0.0
230
1.0
 70
     8
 71
     3
 72
    10
 73
     6
 74
     0
 42
0.000000001
 43
0.00000001
 40
0.0
 40
0.0
 40
0.0
 40
0.0
 40
0.2182317798359339
 40
0.8734428818970339
 40
1.0
 40
1.0
 40
1.0
 40
1.0
 10
508.6949534770877
 20
-408.5661007796952
 30
0.0
 10
509.1087481195704
 20
-408.7086564367702
 30
0.0
 10
510.764904639557
 20
-409.2792159769066
 30
0.0
 10
512.7329904272461
 20
-409.7832307327918
 30
0.0
 10
514.3219753572658
 20
-410.0497119540509
 30
0.0
 10
514.5792093407733
 20
-410.0928514607758
 30
0.0
  0
LINE
  5
DE
330
1F
100
AcDbEntity
  8
0
  6
Continuous
 62
     7
370
    25
100
AcDbLine
 10
527.9101152792
 20
-411.1201561065
 30
0.0
 11
615.7583299904
 21
-407.9683864804
 31
0.0
  0
LINE
  5
DF
330
1F
100
AcDbEntity
  8
0
  6
Continuous
 62
     7
370
    25
100
AcDbLine
 10
700.5760177063
 20
-261.0439243979
 30
0.0
 11
659.3741278808
 21
-183.3931259983
 31
0.0
  0
LINE
  5
E0
330
1F
100
AcDbEntity
  8
0
  6
Continuous
 62
     7
370
    25
100
AcDbLine
 10
762.3661609748
 20
-290.7387167657
 30
0.0
 11
696.0050313004
 21
-252.4292520446
 31
0.0
  0
LINE
  5
E1
330
1F
100
AcDbEntity
  8
0
  6
Continuous
 62
     7
370
    25
100
AcDbLine
 10
606.0123427901
 20
-408.3180487566
 30
0.0
 11
672.3734724645
 21
-446.6275134777
 31
0.0
  0
LWPOLYLINE
  5
E2
330
1F
100
AcDbEntity
  8
0
  6
Continuous
 62
     7
370
    25
100
AcDbPolyline
 90
      126
 70
   128
 43
0.0
 10
372.3017036231
 20
-283.7766697403
 10
372.4267427859
 20
-277.9607711681
 10
372.8015230996
 20
-272.0152089698
 10
373.4251278701
 20
-265.9549850911
 10
374.2959555174
 20
-259.7954238496
 10
375.4118144051
 20
-253.5520780268
 10
376.7698912312
 20
-247.240719359
 10
378.3667404909
 20
-240.8772974716
 10
380.1983476968
 20
-234.4778729642
 10
382.2600766955
 20
-228.0586219684
 10
384.546717083
 20
-221.6357570642
 10
387.0525000093
 20
-215.2255059882
 10
389.7710876421
 20
-208.844053838
 10
392.6956153134
 20
-202.5075309083
 10
395.8186967881
 20
-196.2319366453
 10
399.1324400687
 20
-190.0331244387
 10
402.6284790058
 20
-183.9267529555
 10
406.2979785663
 20
-177.9282526795
 10
410.131671712
 20
-172.0527681202
 10
414.1198752042
 20
-166.3151486883
 10
418.2525054096
 20
-160.7298848185
 10
422.5191362515
 20
-155.3110866819
 10
426.9089781366
 20
-150.0724355144
 10
431.4109517122
 20
-145.0271836236
 10
436.0136773292
 20
-140.1880448813
 10
440.7055329941
 20
-135.5672768588
 10
445.4746622715
 20
-131.176530256
 10
450.3090203824
 20
-127.0268952939
 10
455.1963952775
 20
-123.1288773819
 10
460.1244418815
 20
-119.4922921772
 10
465.0807090932
 20
-116.1263473369
 10
470.0526789694
 20
-113.0395468932
 10
475.0277910908
 20
-110.2396771881
 10
479.9934784524
 20
-107.7338104877
 10
484.93719644
 20
-105.5282760885
 10
489.8464574033
 20
-103.6286646922
 10
494.7088589735
 20
-102.0397512225
 10
499.5121219299
 20
-100.7655581363
 10
504.2441066629
 20
-99.8093094175
 10
508.892864541
 20
-99.1734130914
 10
513.4466523985
 20
-98.8594771957
 10
517.8939667799
 20
-98.8682960951
 10
522.2235702818
 20
-99.1998474422
 10
526.424525797
 20
-99.8532967434
 10
530.4862281247
 20
-100.8269851944
 10
534.398409239
 20
-102.1184631414
 10
538.1511909722
 20
-103.7244596669
 10
541.7350902834
 20
-105.6409221349
 10
545.1410614052
 20
-107.8630101108
 10
548.3604905756
 20
-110.38511057
 10
551.385248721
 20
-113.2008500709
 10
554.2076967253
 20
-116.3031160476
 10
556.8207065025
 20
-119.6840689799
 10
559.2176768027
 20
-123.3351758547
 10
561.3925490163
 20
-127.2472071258
 10
563.3398282479
 20
-131.4102853855
 10
565.0546043897
 20
-135.8138914506
 10
566.5325363163
 20
-140.4469008624
 10
567.7698940316
 20
-145.2976143098
 10
568.7635481321
 20
-150.3537743583
 10
569.511001417
 20
-155.6026080389
 10
570.0103467414
 20
-161.0308618253
 10
570.2603407734
 20
-166.62481628
 10
570.2603407734
 20
-172.3703457445
 10
570.0103467414
 20
-178.2529371647
 10
569.511001417
 20
-184.2577227909
 10
568.7635481321
 20
-190.3695476649
 10
567.7698940316
 20
-196.572956318
 10
566.5325363163
 20
-202.8522925744
 10
565.0546043897
 20
-209.1916858672
 10
563.3398282479
 20
-215.5751303236
 10
561.3925490163
 20
-221.9864893282
 10
559.2176768027
 20
-228.4095746078
 10
556.8207065025
 20
-234.8281644836
 10
554.2076967253
 20
-241.2260342878
 10
551.385248721
 20
-247.5870293662
 10
548.3604905756
 20
-253.8950802859
 10
545.1410614052
 20
-260.1342545451
 10
541.7350902834
 20
-266.2887930736
 10
538.1511909722
 20
-272.3431376091
 10
534.398409239
 20
-278.282003696
 10
530.4862281247
 20
-284.0903898124
 10
526.424525797
 20
-289.7536199514
 10
522.2235702818
 20
-295.2573892484
 10
517.8939667799
 20
-300.5877943952
 10
513.4466523985
 20
-305.731373183
 10
508.892864541
 20
-310.6751288344
 10
504.2441066629
 20
-315.4065741073
 10
499.5121219299
 20
-319.9137586688
 10
494.7088589735
 20
-324.1852949478
 10
489.8464574033
 20
-328.2103908336
 10
484.93719644
 20
-331.9788914964
 10
479.9934784524
 20
-335.4812523896
 10
475.0277910908
 20
-338.7086462811
 10
470.0526789694
 20
-341.6529187638
 10
465.0807090932
 20
-344.306632549
 10
460.1244418815
 20
-346.6630720269
 10
455.1963952775
 20
-348.7162883202
 10
450.3090203824
 20
-350.4611133509
 10
445.4746622715
 20
-351.8931094553
 10
440.7055329941
 20
-353.0086823109
 10
436.0136773292
 20
-353.8050155328
 10
431.4109517122
 20
-354.2800706721
 10
426.9089781366
 20
-354.432686832
 10
422.5191362515
 20
-354.262439221
 10
418.2525054096
 20
-353.7697881984
 10
414.1198752042
 20
-352.955957601
 10
410.131671712
 20
-351.8230199078
 10
406.2979785663
 20
-350.3738232383
 10
402.6284790058
 20
-348.6120369739
 10
399.1324400687
 20
-346.5421061294
 10
395.8186967881
 20
-344.1692604767
 10
392.6956153134
 20
-341.499499332
 10
389.7710876421
 20
-338.5395641789
 10
387.0525000093
 20
-335.296926498
 10
384.546717083
 20
-331.779790807
 10
382.2600766955
 20
-327.997024698
 10
380.1983476968
 20
-323.9581953355
 10
378.3667404909
 20
-319.6734994947
 10
376.7698912312
 20
-315.1537605187
 10
375.4118144051
 20
-310.4104039785
 10
374.2959555174
 20
-305.4554014043
 10
373.4251278701
 20
-300.301276363
 10
372.8015230996
 20
-294.9610512268
 10
372.4267427859
 20
-289.4482011681
 10
372.3017036231
 20
-283.7766697403
  0
LWPOLYLINE
  5
E3
330
1F
100
AcDbEntity
  8
0
  6
Continuous
 62
     7
370
    25
100
AcDbPolyline
 90
      114
 70
   128
 43
0.0
 10
390.2622143311
 20
-273.4082876058
 10
390.3874536914
 20
-268.1355481515
 10
390.7627766458
 20
-262.7345124155
 10
391.3870241558
 20
-257.2218751111
 10
392.2582680031
 20
-251.6146730879
 10
393.3738107895
 20
-245.9302416047
 10
394.7302175468
 20
-240.1861424693
 10
396.3232788584
 20
-234.4001427416
 10
398.1480846166
 20
-228.5901158808
 10
400.1989818753
 20
-222.7740295736
 10
402.4696433388
 20
-216.9698514434
 10
404.9530410202
 20
-211.1955247132
 10
407.6415094614
 20
-205.4689043325
 10
410.5267246598
 20
-199.8076809288
 10
413.5997830936
 20
-194.2293625643
 10
416.8511753802
 20
-188.7511804358
 10
420.2708547645
 20
-183.3900797557
 10
423.8482529243
 20
-178.1626254559
 10
427.5723115803
 20
-173.0849717725
 10
431.4315193743
 20
-168.1728166213
 10
435.4139487483
 20
-163.4413498897
 10
439.5072901884
 20
-158.9051849986
 10
443.6988891032
 20
-154.5783436962
 10
447.9757932394
 20
-150.474210435
 10
452.3247777062
 20
-146.6054631719
 10
456.7324055614
 20
-142.9840566437
 10
461.1850495435
 20
-139.6211915701
 10
465.668948048
 20
-136.527264089
 10
470.1702419234
 20
-133.7118262622
 10
474.6750173589
 20
-131.1835917367
 10
479.1693501719
 20
-128.9503736749
 10
483.6393487775
 20
-127.0190660331
 10
488.0711978997
 20
-125.3956487455
 10
492.4511971786
 20
-124.0851289353
 10
496.7658095733
 20
-123.091567725
 10
501.0016969234
 20
-122.4180353727
 10
505.145767364
 20
-122.0666021508
 10
509.1852135215
 20
-122.0383710497
 10
513.1075493921
 20
-122.3334139023
 10
516.9006498542
 20
-122.9508276618
 10
520.5527849132
 20
-123.8887085493
 10
524.0526802869
 20
-125.1441414133
 10
527.3895042355
 20
-126.7132620857
 10
530.5529518543
 20
-128.591208721
 10
533.5332398062
 20
-130.7721856738
 10
536.3211590048
 20
-133.2494452533
 10
538.9080904195
 20
-136.0153333521
 10
541.2860419543
 20
-139.0612985757
 10
543.4476537156
 20
-142.3779348283
 10
545.3862559648
 20
-145.9549752352
 10
547.0958533126
 20
-149.7813742706
 10
548.5711563295
 20
-153.8453047194
 10
549.8076078876
 20
-158.1342002652
 10
550.8013884286
 20
-162.6348056813
 10
551.5494212327
 20
-167.3332133338
 10
552.0493987599
 20
-172.2148981648
 10
552.2997773818
 20
-177.2647680731
 10
552.2997773818
 20
-182.4672190475
 10
552.0493987599
 20
-187.8061699595
 10
551.5494212327
 20
-193.265116556
 10
550.8013884286
 20
-198.8271845006
 10
549.8076078876
 20
-204.4751845064
 10
548.5711563295
 20
-210.1916566343
 10
547.0958533126
 20
-215.9589356896
 10
545.3862559648
 20
-221.759193808
 10
543.4476537156
 20
-227.574496729
 10
541.2860419543
 20
-233.3868767979
 10
538.9080904195
 20
-239.1783664234
 10
536.3211590048
 20
-244.9310619577
 10
533.5332398062
 20
-250.6271845285
 10
530.5529518543
 20
-256.2491287075
 10
527.3895042355
 20
-261.7795142191
 10
524.0526802869
 20
-267.2012498173
 10
520.5527849132
 20
-272.497575867
 10
516.9006498542
 20
-277.6521221394
 10
513.1075493921
 20
-282.6489564738
 10
509.1852135215
 20
-287.4726319279
 10
505.145767364
 20
-292.1082460876
 10
501.0016969234
 20
-296.5414547524
 10
496.7658095733
 20
-300.758573834
 10
492.4511971786
 20
-304.7465580595
 10
488.0711978997
 20
-308.4930777747
 10
483.6393487775
 20
-311.9865645673
 10
479.1693501719
 20
-315.2162074615
 10
474.6750173589
 20
-318.1720356136
 10
470.1702419234
 20
-320.8449040973
 10
465.668948048
 20
-323.2265495561
 10
461.1850495435
 20
-325.3096210926
 10
456.7324055614
 20
-327.0876693335
 10
452.3247777062
 20
-328.5552016057
 10
447.9757932394
 20
-329.7076849281
 10
443.6988891032
 20
-330.5415600741
 10
439.5072901884
 20
-331.0542358668
 10
435.4139487483
 20
-331.2441424051
 10
431.4315193743
 20
-331.1106907572
 10
427.5723115803
 20
-330.6542820817
 10
423.8482529243
 20
-329.8763350006
 10
420.2708547645
 20
-328.7792566987
 10
416.8511753802
 20
-327.3664337943
 10
413.5997830936
 20
-325.6422292942
 10
410.5267246598
 20
-323.6119886745
 10
407.6415094614
 20
-321.2819638323
 10
404.9530410202
 20
-318.6593830424
 10
402.4696433388
 20
-315.7523262436
 10
400.1989818753
 20
-312.5697980358
 10
398.1480846166
 20
-309.1216273009
 10
396.3232788584
 20
-305.4184763224
 10
394.7302175468
 20
-301.4717860344
 10
393.3738107895
 20
-297.2937608061
 10
392.2582680031
 20
-292.8973076087
 10
391.3870241558
 20
-288.29602232
 10
390.7627766458
 20
-283.5041258493
 10
390.3874536914
 20
-278.5364287725
 10
390.2622143311
 20
-273.4082876058
  0
ARC
  5
E4
330
1F
100
AcDbEntity
  8
0
  6
Continuous
 62
     7
370
    25
100
AcDbCircle
 10
615.5741618117
 20
-202.8986149651
 30
0.0
 40
47.3162214918682
100
AcDbArc
 50
47.6237753112
 51
59.9661083167
  0
ARC
  5
E5
330
1F
100
AcDbEntity
  8
0
  6
Continuous
 62
     7
370
    25
100
AcDbCircle
 10
522.9197752909
 20
-363.3847578091
 30
0.0
 40
47.37152967966227
100
AcDbArc
 50
240.0473035752
 51
252.1825592063
  0
ARC
  5
E6
330
1F
100
AcDbEntity
  8
0
  6
Continuous
 62
     7
370
    25
100
AcDbCircle
 10
599.1403722391
 20
-215.9046814198
 30
0.0
 40
68.39587390682989
100
AcDbArc
 50
13.2011448203
 51
37.6605490387
  0
ARC
  5
E7
330
1F
100
AcDbEntity
  8
0
  6
Continuous
 62
     7
370
    25
100
AcDbCircle
 10
526.2653883531
 20
-343.8935432547
 30
0.0
 40
67.21675457046774
100
AcDbArc
 50
260.1089455874
 51
289.2118319817
  0
ARC
  5
E8
330
1F
100
AcDbEntity
  8
0
  6
Continuous
 62
     7
370
    25
100
AcDbCircle
 10
658.4336260639
 20
-283.0864515495
 30
0.0
 40
47.55895474637323
100
AcDbArc
 50
14.8606237501
 51
27.6117623963
  0
ARC
  5
E9
330
1F
100
AcDbEntity
  8
0
  6
Continuous
 62
     7
370
    25
100
AcDbCircle
 10
613.7693299862
 20
-360.4210944981
 30
0.0
 40
47.58887575755905
100
AcDbArc
 50
272.3954024781
 51
285.2357725409
  0
LWPOLYLINE
  5
EA
330
1F
100
AcDbEntity
  8
0
  6
Continuous
 62
     7
370
    25
100
AcDbPolyline
 90
       52
 70
   128
 43
0.0
 10
762.3661609748
 20
-290.7387167657
 10
763.7610952199
 20
-291.595542564
 10
766.4049775637
 20
-293.5322759398
 10
768.8553426526
 20
-295.7655960197
 10
771.1025177848
 20
-298.2866866101
 10
773.1376310487
 20
-301.085603066
 10
774.952658738
 20
-304.1512935875
 10
776.5404306202
 20
-307.4716631001
 10
777.8946826199
 20
-311.0336051987
 10
779.0100726239
 20
-314.8230629857
 10
779.8821962867
 20
-318.8250823056
 10
780.5076081034
 20
-323.0238710629
 10
780.8838477517
 20
-327.402853597
 10
781.0094295552
 20
-331.9447486298
 10
780.8838477517
 20
-336.6316373267
 10
780.5076081034
 20
-341.4450169124
 10
779.8821962867
 20
-346.3658907831
 10
779.0100726239
 20
-351.374842651
 10
777.8946826199
 20
-356.4521023251
 10
776.5404306202
 20
-361.5776305005
 10
774.952658738
 20
-366.7312024075
 10
773.1376310487
 20
-371.8924792934
 10
771.1025177848
 20
-377.0410875091
 10
768.8553426526
 20
-382.156711281
 10
766.4049775637
 20
-387.2191626727
 10
763.7610952199
 20
-392.208457627
 10
760.9341269662
 20
-397.1049102595
 10
757.9352311807
 20
-401.8891936923
 10
754.7762405911
 20
-406.5424313049
 10
751.4696253962
 20
-411.0462545258
 10
748.0284326799
 20
-415.3828864778
 10
744.466244264
 20
-419.5352210621
 10
740.7971187568
 20
-423.486862497
 10
737.0355375519
 20
-427.2222173289
 10
733.1963442425
 20
-430.7265476588
 10
729.2946906208
 20
-433.9860205676
 10
725.3459747743
 20
-436.9877681865
 10
721.3657808296
 20
-439.7199529015
 10
717.3698167196
 20
-442.1717911116
 10
713.3738526096
 20
-444.3335948587
 10
709.3936586649
 20
-446.1968442557
 10
705.4449428185
 20
-447.7541869102
 10
701.5432891967
 20
-448.9994673868
 10
697.7040958873
 20
-449.9277753005
 10
693.9425146824
 20
-450.5354496838
 10
690.2733891752
 20
-450.8200903877
 10
686.7112007593
 20
-450.7805710046
 10
683.270008043
 20
-450.4170555928
 10
679.9633928481
 20
-449.730969013
 10
676.8044022586
 20
-448.7250243004
 10
673.805506473
 20
-447.4031922412
 10
672.3734724645
 20
-446.6275134777
  0
LWPOLYLINE
  5
EB
330
1F
100
AcDbEntity
  8
0
  6
Continuous
 62
     1
370
    25
100
AcDbPolyline
 90
       59
 70
   128
 43
0.0
 10
647.4651011947
 20
-167.944462114
 10
649.3507933439
 20
-169.7551551894
 10
652.1732413481
 20
-172.8574211662
 10
654.7862511254
 20
-176.2383740984
 10
657.1832214255
 20
-179.8894809732
 10
659.3580936391
 20
-183.8015122443
 10
661.3053728707
 20
-187.9645905041
 10
663.0201490125
 20
-192.3681965691
 10
664.4980809391
 20
-197.0012059809
 10
665.7354386544
 20
-201.8519194283
 10
666.7290927549
 20
-206.9080794769
 10
667.4765460398
 20
-212.1569131574
 10
667.9758913643
 20
-217.5851669439
 10
668.2258853962
 20
-223.1791213986
 10
668.2258853962
 20
-228.924650863
 10
667.9758913643
 20
-234.8072422832
 10
667.4765460398
 20
-240.8120279094
 10
666.7290927549
 20
-246.9238527835
 10
665.7354386544
 20
-253.1272614365
 10
664.4980809391
 20
-259.406597693
 10
663.0201490125
 20
-265.7459909858
 10
661.3053728707
 20
-272.1294354421
 10
659.3580936391
 20
-278.5407944467
 10
657.1832214255
 20
-284.9638797263
 10
654.7862511254
 20
-291.3824696021
 10
652.1732413481
 20
-297.7803394063
 10
649.3507933439
 20
-304.1413344848
 10
646.3260351984
 20
-310.4493854044
 10
643.1066060281
 20
-316.6885596636
 10
639.7006349062
 20
-322.8430981922
 10
636.116735595
 20
-328.8974427276
 10
632.3639538618
 20
-334.8363088145
 10
628.4517727476
 20
-340.644694931
 10
624.3900704199
 20
-346.3079250699
 10
620.1891149047
 20
-351.811694367
 10
615.8595114028
 20
-357.1420995137
 10
611.4121970213
 20
-362.2856783015
 10
606.8584091638
 20
-367.2294339529
 10
602.2096512857
 20
-371.9608792259
 10
597.4776665527
 20
-376.4680637873
 10
592.6744035964
 20
-380.7396000663
 10
587.8120020261
 20
-384.7646959521
 10
582.9027410628
 20
-388.5331966149
 10
577.9590230753
 20
-392.0355575081
 10
572.9933357136
 20
-395.2629513996
 10
568.0182235923
 20
-398.2072238823
 10
563.046253716
 20
-400.8609376675
 10
558.0899865043
 20
-403.2173771454
 10
553.1619399004
 20
-405.2705934387
 10
548.2745650053
 20
-407.0154184694
 10
543.4402068943
 20
-408.4474145739
 10
538.6710776169
 20
-409.5629874295
 10
533.9792219521
 20
-410.3593206514
 10
529.3764963351
 20
-410.8343757906
 10
524.8745227595
 20
-410.9869919505
 10
520.4846808743
 20
-410.8167443396
 10
516.2180500324
 20
-410.324093317
 10
512.0854198271
 20
-409.5102627195
 10
508.4247921781
 20
-408.4841734234
  0
LWPOLYLINE
  5
EC
330
1F
100
AcDbEntity
  8
0
  6
Continuous
 62
     1
370
    25
100
AcDbPolyline
 90
       22
 70
   128
 43
0.0
 10
489.907339843
 20
-306.9586834582
 10
490.8559073523
 20
-302.2054580988
 10
492.2123141096
 20
-296.4613589633
 10
493.8053754213
 20
-290.6753592357
 10
495.6301811794
 20
-284.8653323748
 10
497.6810784381
 20
-279.0492460676
 10
499.9517399017
 20
-273.2450679375
 10
502.435137583
 20
-267.4707412073
 10
505.1236060242
 20
-261.7441208265
 10
508.0088212226
 20
-256.0828974228
 10
511.0818796564
 20
-250.5045790583
 10
514.333271943
 20
-245.0263969299
 10
517.7529513273
 20
-239.6652962498
 10
521.3303494872
 20
-234.43784195
 10
525.0544081431
 20
-229.3601882666
 10
528.9136159371
 20
-224.4480331153
 10
532.8960453111
 20
-219.7165663837
 10
536.9893867512
 20
-215.1804014926
 10
541.180985666
 20
-210.8535601902
 10
545.4578898022
 20
-206.7494269291
 10
549.806874269
 20
-202.880679666
 10
550.1680635411
 20
-202.5727374935
  0
LWPOLYLINE
  5
ED
330
1F
100
AcDbEntity
  8
0
  6
Continuous
 62
     1
370
    25
100
AcDbPolyline
 90
       43
 70
   128
 43
0.0
 10
665.7288400384
 20
-200.2850936016
 10
666.2121168769
 20
-202.3203931614
 10
667.2043695947
 20
-207.3694229783
 10
667.9507692084
 20
-212.6108511724
 10
668.4494085731
 20
-218.0314485522
 10
668.6990443568
 20
-223.6175146917
 10
668.6990443568
 20
-229.3549391427
 10
668.4494085731
 20
-235.2292286231
 10
667.9507692084
 20
-241.2255427589
 10
667.2043695947
 20
-247.3287456036
 10
666.2121168769
 20
-253.5234060231
 10
664.9764977191
 20
-259.7938845709
 10
663.5006520615
 20
-266.1243350159
 10
661.7882993635
 20
-272.4987697353
 10
659.8437702137
 20
-278.9010855732
 10
657.6719641834
 20
-285.3151125065
 10
655.2783761678
 20
-291.7246440657
 10
652.6690542398
 20
-298.1134920843
 10
649.8505838444
 20
-304.4655171157
 10
646.8300930674
 20
-310.7646679781
 10
643.61520522
 20
-316.995039545
 10
640.2140388388
 20
-323.1408909963
 10
636.6351971494
 20
-329.1866944871
 10
632.8877101141
 20
-335.1171868535
 10
628.9810449686
 20
-340.9173817812
 10
624.9250746123
 20
-346.5726184721
 10
620.7300407294
 20
-352.0686255196
 10
616.4065485205
 20
-357.3915117828
 10
611.9655087511
 20
-362.5278363433
 10
607.4181456538
 20
-367.4646221948
 10
602.7759442449
 20
-372.1893866559
 10
598.0506318848
 20
-376.6902128528
 10
593.2541466685
 20
-380.9557314645
 10
588.3986044979
 20
-384.9751397314
 10
583.4962687886
 20
-388.7383284503
 10
578.5595247874
 20
-392.2357507914
 10
573.600842693
 20
-395.4585895972
 10
568.6327487627
 20
-398.3987132251
 10
563.6677926325
 20
-401.0486700787
 10
558.7185171878
 20
-403.4017911724
 10
553.7974221797
 20
-405.4521137963
 10
548.9169422456
 20
-407.194467209
 10
548.383845198
 20
-407.3668916915
  0
LWPOLYLINE
  5
EE
330
1F
100
AcDbEntity
  8
0
  6
Continuous
 62
     1
370
    25
100
AcDbPolyline
 90
       36
 70
   128
 43
0.0
 10
704.401855733
 20
-270.8890732386
 10
704.6086439769
 20
-271.6757610846
 10
705.4826853213
 20
-275.6865593682
 10
706.1094721789
 20
-279.8945605019
 10
706.4865336908
 20
-284.2831542234
 10
706.6123894488
 20
-288.8350170493
 10
706.4865336908
 20
-293.5321898403
 10
706.1094721789
 20
-298.3561295168
 10
705.4826853213
 20
-303.2878033525
 10
704.6086439769
 20
-308.307748292
 10
703.4908094556
 20
-313.3961485181
 10
702.1335861031
 20
-318.5329236609
 10
700.5423265693
 20
-323.6978078866
 10
698.7233212711
 20
-328.8704061707
 10
696.6837404412
 20
-334.0303144458
 10
694.4316341278
 20
-339.1571621873
 10
691.9758953157
 20
-344.2307219166
 10
689.3262072435
 20
-349.2309669919
 10
686.4930355005
 20
-354.1381643829
 10
683.4875595383
 20
-358.9329507117
 10
680.3216357921
 20
-363.5963961276
 10
677.007766071
 20
-368.1101016435
 10
673.5590211662
 20
-372.4562523613
 10
669.9890171441
 20
-376.6176919949
 10
666.3118389546
 20
-380.5780095559
 10
662.5420035529
 20
-384.3215606427
 10
658.6943848251
 20
-387.8335777014
 10
654.7841701247
 20
-391.1002072836
 10
650.8267891496
 20
-394.1085450213
 10
646.8378612584
 20
-396.846720794
 10
642.833128299
 20
-399.3039375057
 10
638.8283953396
 20
-401.4704870493
 10
634.8394674484
 20
-403.3378293886
 10
630.8820864733
 20
-404.8985864688
 10
626.9718717729
 20
-406.1465946829
 10
626.275288417
 20
-406.3373454295
  0
ARC
  5
EF
330
1F
100
AcDbEntity
  8
0
  6
Continuous
 62
     1
370
    25
100
AcDbCircle
 10
675.253928703
 20
-344.3701293823
 30
0.0
 40
187.1377291963439
100
AcDbArc
 50
132.1976878271
 51
167.807689277
  0
LWPOLYLINE
  5
F0
330
1F
100
AcDbEntity
  8
0
  6
Continuous
 62
     1
370
    25
100
AcDbPolyline
 90
       44
 70
   128
 43
0.0
 10
699.0373442684
 20
-258.1440762931
 10
699.2137130244
 20
-258.4102335613
 10
701.0287407137
 20
-261.4759240829
 10
702.6165125959
 20
-264.7962935955
 10
703.9707645956
 20
-268.358235694
 10
705.0861545996
 20
-272.147693481
 10
705.9582782624
 20
-276.149712801
 10
706.5836900791
 20
-280.3485015582
 10
706.9599297274
 20
-284.7274840924
 10
707.0855115309
 20
-289.2693791252
 10
706.9599297274
 20
-293.956267822
 10
706.5836900791
 20
-298.7696474077
 10
705.9582782624
 20
-303.6905212785
 10
705.0861545996
 20
-308.6994731464
 10
703.9707645956
 20
-313.7767328204
 10
702.6165125959
 20
-318.9022609959
 10
701.0287407137
 20
-324.0558329029
 10
699.2137130244
 20
-329.2171097887
 10
697.1785997605
 20
-334.3657180044
 10
694.9314246283
 20
-339.4813417763
 10
692.4810595394
 20
-344.543793168
 10
689.8371771956
 20
-349.5330881224
 10
687.0102089419
 20
-354.4295407549
 10
684.0113131564
 20
-359.2138241876
 10
680.8523225668
 20
-363.8670618002
 10
677.5457073719
 20
-368.3708850211
 10
674.1045146556
 20
-372.7075169731
 10
670.5423262397
 20
-376.8598515575
 10
666.8732007325
 20
-380.8114929924
 10
663.1116195276
 20
-384.5468478243
 10
659.2724262182
 20
-388.0511781542
 10
655.3707725965
 20
-391.3106510629
 10
651.42205675
 20
-394.3123986818
 10
647.4418628053
 20
-397.0445833968
 10
643.4458986953
 20
-399.496421607
 10
639.4499345853
 20
-401.6582253541
 10
635.4697406406
 20
-403.5214747511
 10
631.5210247941
 20
-405.0788174055
 10
627.6193711724
 20
-406.3240978821
 10
623.780177863
 20
-407.2524057958
 10
620.0185966581
 20
-407.8600801792
 10
616.3494711509
 20
-408.1447208831
 10
612.787282735
 20
-408.1052015
 10
612.4776614491
 20
-408.0860878705
  0
ENDSEC
  0
SECTION
  2
OBJECTS
  0
DICTIONARY
  5
C
330
0
100
AcDbDictionary
281
     1
  3
ACAD_GROUP
350
D
  3
ACAD_LAYOUT
350
1A
  3
ACAD_MLINESTYLE
350
17
  3
ACAD_PLOTSETTINGS
350
19
  3
ACAD_PLOTSTYLENAME
350
E
  3
ACAD_SCALELIST
350
47
  0
DICTIONARY
  5
D
102
{ACAD_REACTORS
330
C
102
}
330
C
100
AcDbDictionary
281
     1
  0
DICTIONARY
  5
1A
102
{ACAD_REACTORS
330
C
102
}
330
C
100
AcDbDictionary
281
     1
  3
Layout1
350
1E
  3
Layout2
350
26
  3
Model
350
22
  0
DICTIONARY
  5
17
102
{ACAD_REACTORS
330
C
102
}
330
C
100
AcDbDictionary
281
     1
  3
Standard
350
18
  0
DICTIONARY
  5
19
102
{ACAD_REACTORS
330
C
102
}
330
C
100
AcDbDictionary
281
     1
  0
ACDBDICTIONARYWDFLT
  5
E
102
{ACAD_REACTORS
330
C
102
}
330
C
100
AcDbDictionary
281
     1
  3
Normal
350
F
100
AcDbDictionaryWithDefault
340
F
  0
DICTIONARY
  5
47
102
{ACAD_REACTORS
330
C
102
}
330
C
100
AcDbDictionary
281
     1
  3
A0
350
48
  3
A1
350
49
  3
A2
350
4A
  3
A3
350
4B
  3
A4
350
4C
  3
A5
350
4D
  3
A6
350
4E
  3
A7
350
4F
  3
A8
350
50
  3
A9
350
51
  3
B0
350
52
  3
B1
350
53
  3
B2
350
54
  3
B3
350
55
  3
B4
350
56
  3
B5
350
57
  3
B6
350
58
  3
B7
350
59
  3
B8
350
5A
  3
B9
350
5B
  3
C0
350
5C
  3
C1
350
5D
  3
C2
350
5E
  3
C3
350
5F
  3
C4
350
60
  3
C5
350
61
  3
C6
350
62
  3
C7
350
63
  3
C8
350
64
  3
C9
350
65
  3
D0
350
66
  3
D1
350
67
  3
D2
350
68
  0
LAYOUT
  5
1E
102
{ACAD_REACTORS
330
1A
102
}
330
1A
100
AcDbPlotSettings
  1

  2
none_device
  4

  6

 40
0.0
 41
0.0
 42
0.0
 43
0.0
 44
0.0
 45
0.0
 46
0.0
 47
0.0
 48
0.0
 49
0.0
140
0.0
141
0.0
142
1.0
143
1.0
 70
   688
 72
     1
 73
     0
 74
     5
  7

 75
    16
147
1.0
148
0.0
149
0.0
100
AcDbLayout
  1
Layout1
 70
     1
 71
     1
 10
0.0
 20
0.0
 11
420.0
 21
297.0
 12
0.0
 22
0.0
 32
0.0
 14
1.0000000000E+20
 24
1.0000000000E+20
 34
1.0000000000E+20
 15
-1.0000000000E+20
 25
-1.0000000000E+20
 35
-1.0000000000E+20
146
0.0
 13
0.0
 23
0.0
 33
0.0
 16
1.0
 26
0.0
 36
0.0
 17
0.0
 27
1.0
 37
0.0
 76
     0
330
1B
  0
LAYOUT
  5
26
102
{ACAD_REACTORS
330
1A
102
}
330
1A
100
AcDbPlotSettings
  1

  2
none_device
  4

  6

 40
0.0
 41
0.0
 42
0.0
 43
0.0
 44
0.0
 45
0.0
 46
0.0
 47
0.0
 48
0.0
 49
0.0
140
0.0
141
0.0
142
1.0
143
1.0
 70
   688
 72
     1
 73
     0
 74
     5
  7

 75
    16
147
1.0
148
0.0
149
0.0
100
AcDbLayout
  1
Layout2
 70
     1
 71
     2
 10
0.0
 20
0.0
 11
0.0
 21
0.0
 12
0.0
 22
0.0
 32
0.0
 14
0.0
 24
0.0
 34
0.0
 15
0.0
 25
0.0
 35
0.0
146
0.0
 13
0.0
 23
0.0
 33
0.0
 16
1.0
 26
0.0
 36
0.0
 17
0.0
 27
1.0
 37
0.0
 76
     0
330
23
  0
LAYOUT
  5
22
102
{ACAD_REACTORS
330
1A
102
}
330
1A
100
AcDbPlotSettings
  1

  2
none_device
  4
Letter_(8.50_x_11.00_Inches)
  6

 40
6.35
 41
6.35
 42
6.35000508
 43
6.35000508
 44
215.9
 45
279.4
 46
0.0
 47
0.0
 48
0.0
 49
0.0
140
0.0
141
0.0
142
1.0
143
1.0
 70
  1712
 72
     1
 73
     0
 74
     0
  7

 75
     0
147
1.0
148
0.0
149
0.0
100
AcDbLayout
  1
Model
 70
     1
 71
     0
 10
0.0
 20
0.0
 11
279.4
 21
215.9
 12
0.0
 22
0.0
 32
0.0
 14
0.0
 24
0.0
 34
0.0
 15
279.4
 25
215.9
 35
0.0
146
0.0
 13
0.0
 23
0.0
 33
0.0
 16
1.0
 26
0.0
 36
0.0
 17
0.0
 27
1.0
 37
0.0
 76
     0
330
1F
331
29
  0
MLINESTYLE
  5
18
102
{ACAD_REACTORS
330
17
102
}
330
17
100
AcDbMlineStyle
  2
Standard
 70
     0
  3

 62
   256
 51
90.0
 52
90.0
 71
     2
 49
0.5
 62
   256
  6
BYLAYER
 49
-0.5
 62
   256
  6
BYLAYER
  0
ACDBPLACEHOLDER
  5
F
102
{ACAD_REACTORS
330
E
102
}
330
E
  0
SCALE
  5
48
102
{ACAD_REACTORS
330
47
102
}
330
47
100
AcDbScale
 70
     0
300
1:1
140
1.0
141
1.0
290
     1
  0
SCALE
  5
49
102
{ACAD_REACTORS
330
47
102
}
330
47
100
AcDbScale
 70
     0
300
1:2
140
1.0
141
2.0
290
     0
  0
SCALE
  5
4A
102
{ACAD_REACTORS
330
47
102
}
330
47
100
AcDbScale
 70
     0
300
1:4
140
1.0
141
4.0
290
     0
  0
SCALE
  5
4B
102
{ACAD_REACTORS
330
47
102
}
330
47
100
AcDbScale
 70
     0
300
1:5
140
1.0
141
5.0
290
     0
  0
SCALE
  5
4C
102
{ACAD_REACTORS
330
47
102
}
330
47
100
AcDbScale
 70
     0
300
1:8
140
1.0
141
8.0
290
     0
  0
SCALE
  5
4D
102
{ACAD_REACTORS
330
47
102
}
330
47
100
AcDbScale
 70
     0
300
1:10
140
1.0
141
10.0
290
     0
  0
SCALE
  5
4E
102
{ACAD_REACTORS
330
47
102
}
330
47
100
AcDbScale
 70
     0
300
1:16
140
1.0
141
16.0
290
     0
  0
SCALE
  5
4F
102
{ACAD_REACTORS
330
47
102
}
330
47
100
AcDbScale
 70
     0
300
1:20
140
1.0
141
20.0
290
     0
  0
SCALE
  5
50
102
{ACAD_REACTORS
330
47
102
}
330
47
100
AcDbScale
 70
     0
300
1:30
140
1.0
141
30.0
290
     0
  0
SCALE
  5
51
102
{ACAD_REACTORS
330
47
102
}
330
47
100
AcDbScale
 70
     0
300
1:40
140
1.0
141
40.0
290
     0
  0
SCALE
  5
52
102
{ACAD_REACTORS
330
47
102
}
330
47
100
AcDbScale
 70
     0
300
1:50
140
1.0
141
50.0
290
     0
  0
SCALE
  5
53
102
{ACAD_REACTORS
330
47
102
}
330
47
100
AcDbScale
 70
     0
300
1:100
140
1.0
141
100.0
290
     0
  0
SCALE
  5
54
102
{ACAD_REACTORS
330
47
102
}
330
47
100
AcDbScale
 70
     0
300
2:1
140
2.0
141
1.0
290
     0
  0
SCALE
  5
55
102
{ACAD_REACTORS
330
47
102
}
330
47
100
AcDbScale
 70
     0
300
4:1
140
4.0
141
1.0
290
     0
  0
SCALE
  5
56
102
{ACAD_REACTORS
330
47
102
}
330
47
100
AcDbScale
 70
     0
300
8:1
140
8.0
141
1.0
290
     0
  0
SCALE
  5
57
102
{ACAD_REACTORS
330
47
102
}
330
47
100
AcDbScale
 70
     0
300
10:1
140
10.0
141
1.0
290
     0
  0
SCALE
  5
58
102
{ACAD_REACTORS
330
47
102
}
330
47
100
AcDbScale
 70
     0
300
100:1
140
100.0
141
1.0
290
     0
  0
SCALE
  5
59
102
{ACAD_REACTORS
330
47
102
}
330
47
100
AcDbScale
 70
     0
300
1/128" = 1'-0"
140
0.0078125
141
12.0
290
     0
  0
SCALE
  5
5A
102
{ACAD_REACTORS
330
47
102
}
330
47
100
AcDbScale
 70
     0
300
1/64" = 1'-0"
140
0.015625
141
12.0
290
     0
  0
SCALE
  5
5B
102
{ACAD_REACTORS
330
47
102
}
330
47
100
AcDbScale
 70
     0
300
1/32" = 1'-0"
140
0.03125
141
12.0
290
     0
  0
SCALE
  5
5C
102
{ACAD_REACTORS
330
47
102
}
330
47
100
AcDbScale
 70
     0
300
1/16" = 1'-0"
140
0.0625
141
12.0
290
     0
  0
SCALE
  5
5D
102
{ACAD_REACTORS
330
47
102
}
330
47
100
AcDbScale
 70
     0
300
3/32" = 1'-0"
140
0.09375
141
12.0
290
     0
  0
SCALE
  5
5E
102
{ACAD_REACTORS
330
47
102
}
330
47
100
AcDbScale
 70
     0
300
1/8" = 1'-0"
140
0.125
141
12.0
290
     0
  0
SCALE
  5
5F
102
{ACAD_REACTORS
330
47
102
}
330
47
100
AcDbScale
 70
     0
300
3/16" = 1'-0"
140
0.1875
141
12.0
290
     0
  0
SCALE
  5
60
102
{ACAD_REACTORS
330
47
102
}
330
47
100
AcDbScale
 70
     0
300
1/4" = 1'-0"
140
0.25
141
12.0
290
     0
  0
SCALE
  5
61
102
{ACAD_REACTORS
330
47
102
}
330
47
100
AcDbScale
 70
     0
300
3/8" = 1'-0"
140
0.375
141
12.0
290
     0
  0
SCALE
  5
62
102
{ACAD_REACTORS
330
47
102
}
330
47
100
AcDbScale
 70
     0
300
1/2" = 1'-0"
140
0.5
141
12.0
290
     0
  0
SCALE
  5
63
102
{ACAD_REACTORS
330
47
102
}
330
47
100
AcDbScale
 70
     0
300
3/4" = 1'-0"
140
0.75
141
12.0
290
     0
  0
SCALE
  5
64
102
{ACAD_REACTORS
330
47
102
}
330
47
100
AcDbScale
 70
     0
300
1" = 1'-0"
140
1.0
141
12.0
290
     0
  0
SCALE
  5
65
102
{ACAD_REACTORS
330
47
102
}
330
47
100
AcDbScale
 70
     0
300
1-1/2" = 1'-0"
140
1.5
141
12.0
290
     0
  0
SCALE
  5
66
102
{ACAD_REACTORS
330
47
102
}
330
47
100
AcDbScale
 70
     0
300
3" = 1'-0"
140
3.0
141
12.0
290
     0
  0
SCALE
  5
67
102
{ACAD_REACTORS
330
47
102
}
330
47
100
AcDbScale
 70
     0
300
6" = 1'-0"
140
6.0
141
12.0
290
     0
  0
SCALE
  5
68
102
{ACAD_REACTORS
330
47
102
}
330
47
100
AcDbScale
 70
     0
300
1'-0" = 1'-0"
140
12.0
141
12.0
290
     0
  0
ENDSEC
  0
EOF
